ISO-10303-21;
HEADER;
FILE_DESCRIPTION (( 'STEP AP203' ),
    '1' );
FILE_NAME ('Q-OZHWP-R2-10-488-M.STEP',
    '2020-12-22T09:11:52',
    ( '' ),
    ( '' ),
    'SwSTEP 2.0',
    'SolidWorks 2020',
    '' );
FILE_SCHEMA (( 'CONFIG_CONTROL_DESIGN' ));
ENDSEC;

DATA;
#1 = AXIS2_PLACEMENT_3D ( 'NONE', #27, #84, #156 ) ;
#2 = ORIENTED_EDGE ( 'NONE', *, *, #57, .T. ) ;
#3 = EDGE_CURVE ( 'NONE', #321, #193, #179, .T. ) ;
#4 = CARTESIAN_POINT ( 'NONE',  ( -1.614212418857619014, 6.123233995736767268E-16, -5.000000000000000888 ) ) ;
#5 = DIRECTION ( 'NONE',  ( 0.000000000000000000, 0.000000000000000000, 1.000000000000000000 ) ) ;
#6 = VECTOR ( 'NONE', #246, 1000.000000000000000 ) ;
#7 = FACE_OUTER_BOUND ( 'NONE', #68, .T. ) ;
#8 = DATE_AND_TIME ( #164, #195 ) ;
#9 = CARTESIAN_POINT ( 'NONE',  ( 3.000000000000000000, 1.555301434917138433E-15, -12.69999999999999929 ) ) ;
#10 = ORIENTED_EDGE ( 'NONE', *, *, #14, .T. ) ;
#11 = CC_DESIGN_APPROVAL ( #270, ( #28 ) ) ;
#12 = APPLICATION_PROTOCOL_DEFINITION ( 'international standard', 'config_control_design', 1994, #53 ) ;
#13 = CARTESIAN_POINT ( 'NONE',  ( 1.250000000000000444, 6.123233995736766282E-16, -5.000000000000000000 ) ) ;
#14 = EDGE_CURVE ( 'NONE', #17, #321, #78, .T. ) ;
#15 = COORDINATED_UNIVERSAL_TIME_OFFSET ( 8, 0, .AHEAD. ) ;
#16 = AXIS2_PLACEMENT_3D ( 'NONE', #136, #167, #47 ) ;
#17 = VERTEX_POINT ( 'NONE', #29 ) ;
#18 = EDGE_LOOP ( 'NONE', ( #224, #277 ) ) ;
#19 = FACE_OUTER_BOUND ( 'NONE', #42, .T. ) ;
#20 = CC_DESIGN_DATE_AND_TIME_ASSIGNMENT ( #194, #161, ( #28 ) ) ;
#21 = VERTEX_POINT ( 'NONE', #235 ) ;
#22 = AXIS2_PLACEMENT_3D ( 'NONE', #237, #185, #5 ) ;
#23 = PRODUCT ( 'Q-OZHWP-R2-10-488-M', 'Q-OZHWP-R2-10-488-M', '', ( #249 ) ) ;
#24 = CARTESIAN_POINT ( 'NONE',  ( 3.000000000000000000, 0.000000000000000000, 5.000000000000001776 ) ) ;
#25 = ORIENTED_EDGE ( 'NONE', *, *, #178, .T. ) ;
#26 = AXIS2_PLACEMENT_3D ( 'NONE', #134, #82, #31 ) ;
#27 = CARTESIAN_POINT ( 'NONE',  ( -1.614212418857619014, 0.000000000000000000, 0.000000000000000000 ) ) ;
#28 = PRODUCT_DEFINITION ( 'UNKNOWN', '', #168, #212 ) ;
#29 = CARTESIAN_POINT ( 'NONE',  ( -1.250000000000000222, 0.000000000000000000, 5.000000000000000888 ) ) ;
#30 = VECTOR ( 'NONE', #162, 1000.000000000000000 ) ;
#31 = DIRECTION ( 'NONE',  ( 0.000000000000000000, 0.000000000000000000, 1.000000000000000000 ) ) ;
#32 = FACE_OUTER_BOUND ( 'NONE', #301, .T. ) ;
#33 = CARTESIAN_POINT ( 'NONE',  ( -1.250000000000000222, 0.000000000000000000, 0.000000000000000000 ) ) ;
#34 = APPLICATION_CONTEXT ( 'configuration controlled 3d designs of mechanical parts and assemblies' ) ;
#35 = CARTESIAN_POINT ( 'NONE',  ( -1.614212418857619014, 0.000000000000000000, 0.000000000000000000 ) ) ;
#36 = DIRECTION ( 'NONE',  ( 0.000000000000000000, 0.000000000000000000, 1.000000000000000000 ) ) ;
#37 = PERSON_AND_ORGANIZATION ( #158, #39 ) ;
#38 = CARTESIAN_POINT ( 'NONE',  ( 1.250000000000000444, 0.000000000000000000, 0.000000000000000000 ) ) ;
#39 = ORGANIZATION ( 'UNSPECIFIED', 'UNSPECIFIED', '' ) ;
#40 =( LENGTH_UNIT ( ) NAMED_UNIT ( * ) SI_UNIT ( .MILLI., .METRE. ) );
#41 = AXIS2_PLACEMENT_3D ( 'NONE', #61, #131, #309 ) ;
#42 = EDGE_LOOP ( 'NONE', ( #70, #141, #239, #146 ) ) ;
#43 = CALENDAR_DATE ( 2020, 22, 12 ) ;
#44 = ORIENTED_EDGE ( 'NONE', *, *, #322, .F. ) ;
#45 = EDGE_CURVE ( 'NONE', #100, #204, #183, .T. ) ;
#46 = CC_DESIGN_APPROVAL ( #65, ( #168 ) ) ;
#47 = DIRECTION ( 'NONE',  ( 0.000000000000000000, 0.000000000000000000, 1.000000000000000000 ) ) ;
#48 = PERSON_AND_ORGANIZATION ( #158, #39 ) ;
#49 = ORIENTED_EDGE ( 'NONE', *, *, #69, .F. ) ;
#50 = CARTESIAN_POINT ( 'NONE',  ( -3.000000000000000000, 0.000000000000000000, 0.000000000000000000 ) ) ;
#51 = ORIENTED_EDGE ( 'NONE', *, *, #14, .F. ) ;
#52 = AXIS2_PLACEMENT_3D ( 'NONE', #227, #218, #66 ) ;
#53 = APPLICATION_CONTEXT ( 'configuration controlled 3d designs of mechanical parts and assemblies' ) ;
#54 = PRODUCT_DEFINITION_SHAPE ( 'NONE', 'NONE',  #28 ) ;
#55 = DIRECTION ( 'NONE',  ( 1.000000000000000000, 0.000000000000000000, 0.000000000000000000 ) ) ;
#56 = CARTESIAN_POINT ( 'NONE',  ( 1.250000000000000222, 5.000000000000000000, 0.000000000000000000 ) ) ;
#57 = EDGE_CURVE ( 'NONE', #258, #199, #269, .T. ) ;
#58 = PLANE ( 'NONE',  #184 ) ;
#59 = AXIS2_PLACEMENT_3D ( 'NONE', #96, #247, #191 ) ;
#60 = COORDINATED_UNIVERSAL_TIME_OFFSET ( 8, 0, .AHEAD. ) ;
#61 = CARTESIAN_POINT ( 'NONE',  ( -1.614212418857619014, 0.000000000000000000, 0.000000000000000000 ) ) ;
#62 = CIRCLE ( 'NONE', #22, 12.69999999999999929 ) ;
#63 = APPROVAL_ROLE ( '' ) ;
#64 = CARTESIAN_POINT ( 'NONE',  ( -3.000000000000000000, 6.123233995736766282E-16, -5.000000000000000000 ) ) ;
#65 = APPROVAL ( #139, 'UNSPECIFIED' ) ;
#66 = DIRECTION ( 'NONE',  ( 0.000000000000000000, 0.000000000000000000, 1.000000000000000000 ) ) ;
#67 = DIRECTION ( 'NONE',  ( -1.000000000000000000, -0.000000000000000000, -0.000000000000000000 ) ) ;
#68 = EDGE_LOOP ( 'NONE', ( #314, #44, #25, #174 ) ) ;
#69 = EDGE_CURVE ( 'NONE', #321, #17, #327, .T. ) ;
#70 = ORIENTED_EDGE ( 'NONE', *, *, #293, .T. ) ;
#71 = LOCAL_TIME ( 17, 11, 52.00000000000000000, #325 ) ;
#72 = ORIENTED_EDGE ( 'NONE', *, *, #312, .T. ) ;
#73 = FACE_OUTER_BOUND ( 'NONE', #317, .T. ) ;
#74 = EDGE_LOOP ( 'NONE', ( #275, #324, #279, #300 ) ) ;
#75 = CC_DESIGN_DATE_AND_TIME_ASSIGNMENT ( #76, #200, ( #223 ) ) ;
#76 = DATE_AND_TIME ( #203, #230 ) ;
#77 = AXIS2_PLACEMENT_3D ( 'NONE', #268, #147, #295 ) ;
#78 = CIRCLE ( 'NONE', #177, 5.000000000000000888 ) ;
#79 = DIRECTION ( 'NONE',  ( -0.000000000000000000, 0.000000000000000000, 1.000000000000000000 ) ) ;
#80 = CARTESIAN_POINT ( 'NONE',  ( -1.250000000000000222, 0.000000000000000000, 0.000000000000000000 ) ) ;
#81 = ADVANCED_FACE ( 'NONE', ( #32 ), #58, .F. ) ;
#82 = DIRECTION ( 'NONE',  ( -1.000000000000000000, -0.000000000000000000, -0.000000000000000000 ) ) ;
#83 = CIRCLE ( 'NONE', #306, 12.69999999999999929 ) ;
#84 = DIRECTION ( 'NONE',  ( -1.000000000000000000, -0.000000000000000000, -0.000000000000000000 ) ) ;
#85 = DIRECTION ( 'NONE',  ( 0.000000000000000000, 0.000000000000000000, 1.000000000000000000 ) ) ;
#86 = DIRECTION ( 'NONE',  ( 0.000000000000000000, 0.000000000000000000, 1.000000000000000000 ) ) ;
#87 = PERSON_AND_ORGANIZATION ( #158, #39 ) ;
#88 = CARTESIAN_POINT ( 'NONE',  ( 3.000000000000000000, 6.123233995736768255E-16, -5.000000000000001776 ) ) ;
#89 = ADVANCED_FACE ( 'NONE', ( #211, #210 ), #308, .F. ) ;
#90 = AXIS2_PLACEMENT_3D ( 'NONE', #278, #294, #242 ) ;
#91 = FACE_OUTER_BOUND ( 'NONE', #143, .T. ) ;
#92 = DIRECTION ( 'NONE',  ( -1.000000000000000000, -0.000000000000000000, -0.000000000000000000 ) ) ;
#93 = UNCERTAINTY_MEASURE_WITH_UNIT (LENGTH_MEASURE( 1.000000000000000082E-05 ), #40, 'distance_accuracy_value', 'NONE');
#94 = DIRECTION ( 'NONE',  ( 0.000000000000000000, 0.000000000000000000, 1.000000000000000000 ) ) ;
#95 = ORIENTED_EDGE ( 'NONE', *, *, #257, .F. ) ;
#96 = CARTESIAN_POINT ( 'NONE',  ( 0.000000000000000000, 0.000000000000000000, 0.000000000000000000 ) ) ;
#97 = EDGE_LOOP ( 'NONE', ( #292, #298 ) ) ;
#98 = ORIENTED_EDGE ( 'NONE', *, *, #178, .F. ) ;
#99 = CARTESIAN_POINT ( 'NONE',  ( -1.614212418857619014, 0.000000000000000000, 5.000000000000000888 ) ) ;
#100 = VERTEX_POINT ( 'NONE', #159 ) ;
#101 = DIRECTION ( 'NONE',  ( -1.000000000000000000, -0.000000000000000000, -0.000000000000000000 ) ) ;
#102 = COORDINATED_UNIVERSAL_TIME_OFFSET ( 8, 0, .AHEAD. ) ;
#103 = AXIS2_PLACEMENT_3D ( 'NONE', #328, #175, #255 ) ;
#104 = ADVANCED_FACE ( 'NONE', ( #232 ), #128, .F. ) ;
#105 = DIRECTION ( 'NONE',  ( -1.000000000000000000, -0.000000000000000000, -0.000000000000000000 ) ) ;
#106 = CARTESIAN_POINT ( 'NONE',  ( -1.614212418857619014, 0.000000000000000000, 12.69999999999999929 ) ) ;
#107 = APPROVAL_PERSON_ORGANIZATION ( #323, #270, #63 ) ;
#108 = DIRECTION ( 'NONE',  ( 1.000000000000000000, 0.000000000000000000, 0.000000000000000000 ) ) ;
#109 = DIRECTION ( 'NONE',  ( 0.000000000000000000, 0.000000000000000000, -1.000000000000000000 ) ) ;
#110 = PERSON_AND_ORGANIZATION ( #158, #39 ) ;
#111 = CARTESIAN_POINT ( 'NONE',  ( -1.614212418857619014, 0.000000000000000000, 0.000000000000000000 ) ) ;
#112 = PERSON_AND_ORGANIZATION ( #158, #39 ) ;
#113 = LINE ( 'NONE', #316, #262 ) ;
#114 = PERSON_AND_ORGANIZATION_ROLE ( 'design_owner' ) ;
#115 = CARTESIAN_POINT ( 'NONE',  ( -1.614212418857619014, 6.123233995736767268E-16, -5.000000000000000888 ) ) ;
#116 = CIRCLE ( 'NONE', #16, 12.69999999999999929 ) ;
#117 = PERSON_AND_ORGANIZATION_ROLE ( 'design_supplier' ) ;
#118 = ADVANCED_FACE ( 'NONE', ( #213 ), #132, .T. ) ;
#119 = COORDINATED_UNIVERSAL_TIME_OFFSET ( 8, 0, .AHEAD. ) ;
#120 = ORIENTED_EDGE ( 'NONE', *, *, #129, .T. ) ;
#121 = DATE_AND_TIME ( #43, #71 ) ;
#122 = ORIENTED_EDGE ( 'NONE', *, *, #57, .F. ) ;
#123 = CARTESIAN_POINT ( 'NONE',  ( -1.250000000000000222, 6.123233995736767268E-16, -5.000000000000000888 ) ) ;
#124 = ORIENTED_EDGE ( 'NONE', *, *, #293, .F. ) ;
#125 = FACE_OUTER_BOUND ( 'NONE', #228, .T. ) ;
#126 = EDGE_CURVE ( 'NONE', #304, #21, #335, .T. ) ;
#127 = AXIS2_PLACEMENT_3D ( 'NONE', #80, #108, #109 ) ;
#128 = CYLINDRICAL_SURFACE ( 'NONE', #1, 5.000000000000000888 ) ;
#129 = EDGE_CURVE ( 'NONE', #21, #204, #62, .T. ) ;
#130 = CARTESIAN_POINT ( 'NONE',  ( 3.000000000000000000, 12.69999999999999929, 0.000000000000000000 ) ) ;
#131 = DIRECTION ( 'NONE',  ( -1.000000000000000000, -0.000000000000000000, -0.000000000000000000 ) ) ;
#132 = CYLINDRICAL_SURFACE ( 'NONE', #41, 12.69999999999999929 ) ;
#133 = CYLINDRICAL_SURFACE ( 'NONE', #332, 5.000000000000000888 ) ;
#134 = CARTESIAN_POINT ( 'NONE',  ( 1.250000000000000444, 0.000000000000000000, 0.000000000000000000 ) ) ;
#135 = APPLICATION_PROTOCOL_DEFINITION ( 'international standard', 'config_control_design', 1994, #34 ) ;
#136 = CARTESIAN_POINT ( 'NONE',  ( 3.000000000000000000, 0.000000000000000000, 0.000000000000000000 ) ) ;
#137 = APPROVAL_DATE_TIME ( #8, #270 ) ;
#138 = DIRECTION ( 'NONE',  ( 0.000000000000000000, 0.000000000000000000, 1.000000000000000000 ) ) ;
#139 = APPROVAL_STATUS ( 'not_yet_approved' ) ;
#140 = CC_DESIGN_PERSON_AND_ORGANIZATION_ASSIGNMENT ( #110, #114, ( #23 ) ) ;
#141 = ORIENTED_EDGE ( 'NONE', *, *, #126, .T. ) ;
#142 = CC_DESIGN_SECURITY_CLASSIFICATION ( #223, ( #168 ) ) ;
#143 = EDGE_LOOP ( 'NONE', ( #172, #150, #201, #310 ) ) ;
#144 = LOCAL_TIME ( 17, 11, 52.00000000000000000, #119 ) ;
#145 = DIRECTION ( 'NONE',  ( -1.000000000000000000, -0.000000000000000000, -0.000000000000000000 ) ) ;
#146 = ORIENTED_EDGE ( 'NONE', *, *, #45, .F. ) ;
#147 = DIRECTION ( 'NONE',  ( 1.000000000000000000, 0.000000000000000000, 0.000000000000000000 ) ) ;
#148 = EDGE_CURVE ( 'NONE', #304, #100, #207, .T. ) ;
#149 = CLOSED_SHELL ( 'NONE', ( #245, #104, #329, #151, #166, #334, #286, #118, #89, #81 ) ) ;
#150 = ORIENTED_EDGE ( 'NONE', *, *, #69, .T. ) ;
#151 = ADVANCED_FACE ( 'NONE', ( #287 ), #266, .F. ) ;
#152 = VECTOR ( 'NONE', #208, 1000.000000000000000 ) ;
#153 = CYLINDRICAL_SURFACE ( 'NONE', #231, 5.000000000000000888 ) ;
#154 = CARTESIAN_POINT ( 'NONE',  ( -1.614212418857619014, 1.555301434917138433E-15, -12.69999999999999929 ) ) ;
#155 = AXIS2_PLACEMENT_3D ( 'NONE', #130, #289, #234 ) ;
#156 = DIRECTION ( 'NONE',  ( 0.000000000000000000, 0.000000000000000000, 1.000000000000000000 ) ) ;
#157 = PERSON_AND_ORGANIZATION ( #158, #39 ) ;
#158 = PERSON ( 'UNSPECIFIED', 'UNSPECIFIED', 'UNSPECIFIED', ('UNSPECIFIED'), ('UNSPECIFIED'), ('UNSPECIFIED') ) ;
#159 = CARTESIAN_POINT ( 'NONE',  ( 3.000000000000000000, 0.000000000000000000, 12.69999999999999929 ) ) ;
#160 = APPROVAL ( #259, 'UNSPECIFIED' ) ;
#161 = DATE_TIME_ROLE ( 'creation_date' ) ;
#162 = DIRECTION ( 'NONE',  ( -1.000000000000000000, -0.000000000000000000, -0.000000000000000000 ) ) ;
#163 = VECTOR ( 'NONE', #182, 1000.000000000000000 ) ;
#164 = CALENDAR_DATE ( 2020, 22, 12 ) ;
#165 = DIRECTION ( 'NONE',  ( -1.000000000000000000, -0.000000000000000000, -0.000000000000000000 ) ) ;
#166 = ADVANCED_FACE ( 'NONE', ( #7 ), #153, .F. ) ;
#167 = DIRECTION ( 'NONE',  ( -1.000000000000000000, -0.000000000000000000, -0.000000000000000000 ) ) ;
#168 = PRODUCT_DEFINITION_FORMATION_WITH_SPECIFIED_SOURCE ( 'ANY', '', #23, .NOT_KNOWN. ) ;
#169 = CALENDAR_DATE ( 2020, 22, 12 ) ;
#170 = VERTEX_POINT ( 'NONE', #260 ) ;
#171 = CIRCLE ( 'NONE', #52, 5.000000000000001776 ) ;
#172 = ORIENTED_EDGE ( 'NONE', *, *, #3, .F. ) ;
#173 = SHAPE_DEFINITION_REPRESENTATION ( #54, #238 ) ;
#174 = ORIENTED_EDGE ( 'NONE', *, *, #236, .T. ) ;
#175 = DIRECTION ( 'NONE',  ( -1.000000000000000000, -0.000000000000000000, -0.000000000000000000 ) ) ;
#176 = ORIENTED_EDGE ( 'NONE', *, *, #148, .F. ) ;
#177 = AXIS2_PLACEMENT_3D ( 'NONE', #33, #285, #264 ) ;
#178 = EDGE_CURVE ( 'NONE', #326, #199, #263, .T. ) ;
#179 = LINE ( 'NONE', #4, #333 ) ;
#180 = EDGE_CURVE ( 'NONE', #17, #170, #113, .T. ) ;
#181 = LOCAL_TIME ( 17, 11, 52.00000000000000000, #15 ) ;
#182 = DIRECTION ( 'NONE',  ( -1.000000000000000000, -0.000000000000000000, -0.000000000000000000 ) ) ;
#183 = LINE ( 'NONE', #106, #152 ) ;
#184 = AXIS2_PLACEMENT_3D ( 'NONE', #311, #55, #313 ) ;
#185 = DIRECTION ( 'NONE',  ( -1.000000000000000000, -0.000000000000000000, -0.000000000000000000 ) ) ;
#186 = CYLINDRICAL_SURFACE ( 'NONE', #284, 5.000000000000000888 ) ;
#187 = DIRECTION ( 'NONE',  ( 0.000000000000000000, 0.000000000000000000, 1.000000000000000000 ) ) ;
#188 = CYLINDRICAL_SURFACE ( 'NONE', #90, 12.69999999999999929 ) ;
#189 = CIRCLE ( 'NONE', #276, 5.000000000000000000 ) ;
#190 = PRODUCT_RELATED_PRODUCT_CATEGORY ( 'detail', '', ( #23 ) ) ;
#191 = DIRECTION ( 'NONE',  ( 1.000000000000000000, 0.000000000000000000, 0.000000000000000000 ) ) ;
#192 = FACE_BOUND ( 'NONE', #18, .T. ) ;
#193 = VERTEX_POINT ( 'NONE', #64 ) ;
#194 = DATE_AND_TIME ( #318, #144 ) ;
#195 = LOCAL_TIME ( 17, 11, 52.00000000000000000, #60 ) ;
#196 = ORIENTED_EDGE ( 'NONE', *, *, #3, .T. ) ;
#197 = MANIFOLD_SOLID_BREP ( 'Ðý×', #149 ) ;
#198 = APPROVAL_ROLE ( '' ) ;
#199 = VERTEX_POINT ( 'NONE', #272 ) ;
#200 = DATE_TIME_ROLE ( 'classification_date' ) ;
#201 = ORIENTED_EDGE ( 'NONE', *, *, #180, .T. ) ;
#202 = DIRECTION ( 'NONE',  ( -1.000000000000000000, -0.000000000000000000, -0.000000000000000000 ) ) ;
#203 = CALENDAR_DATE ( 2020, 22, 12 ) ;
#204 = VERTEX_POINT ( 'NONE', #331 ) ;
#205 = APPROVAL_PERSON_ORGANIZATION ( #273, #65, #198 ) ;
#206 = AXIS2_PLACEMENT_3D ( 'NONE', #302, #145, #252 ) ;
#207 = CIRCLE ( 'NONE', #254, 12.69999999999999929 ) ;
#208 = DIRECTION ( 'NONE',  ( -1.000000000000000000, -0.000000000000000000, -0.000000000000000000 ) ) ;
#209 = EDGE_CURVE ( 'NONE', #204, #21, #83, .T. ) ;
#210 = FACE_BOUND ( 'NONE', #97, .T. ) ;
#211 = FACE_OUTER_BOUND ( 'NONE', #253, .T. ) ;
#212 = DESIGN_CONTEXT ( 'detailed design', #34, 'design' ) ;
#213 = FACE_OUTER_BOUND ( 'NONE', #74, .T. ) ;
#214 = CIRCLE ( 'NONE', #206, 5.000000000000000000 ) ;
#215 = PERSON_AND_ORGANIZATION_ROLE ( 'creator' ) ;
#216 = DIRECTION ( 'NONE',  ( -1.000000000000000000, -0.000000000000000000, -0.000000000000000000 ) ) ;
#217 = APPROVAL_DATE_TIME ( #267, #65 ) ;
#218 = DIRECTION ( 'NONE',  ( -1.000000000000000000, -0.000000000000000000, -0.000000000000000000 ) ) ;
#219 = ORIENTED_EDGE ( 'NONE', *, *, #236, .F. ) ;
#220 = CARTESIAN_POINT ( 'NONE',  ( -1.614212418857619014, 0.000000000000000000, 0.000000000000000000 ) ) ;
#221 = CARTESIAN_POINT ( 'NONE',  ( -3.000000000000000000, 0.000000000000000000, 0.000000000000000000 ) ) ;
#222 =( NAMED_UNIT ( * ) PLANE_ANGLE_UNIT ( ) SI_UNIT ( $, .RADIAN. ) );
#223 = SECURITY_CLASSIFICATION ( '', '', #299 ) ;
#224 = ORIENTED_EDGE ( 'NONE', *, *, #274, .F. ) ;
#225 = CC_DESIGN_PERSON_AND_ORGANIZATION_ASSIGNMENT ( #87, #271, ( #168 ) ) ;
#226 = VERTEX_POINT ( 'NONE', #88 ) ;
#227 = CARTESIAN_POINT ( 'NONE',  ( 3.000000000000000000, 0.000000000000000000, 0.000000000000000000 ) ) ;
#228 = EDGE_LOOP ( 'NONE', ( #95, #250, #2, #98 ) ) ;
#229 = PLANE ( 'NONE',  #77 ) ;
#230 = LOCAL_TIME ( 17, 11, 52.00000000000000000, #102 ) ;
#231 = AXIS2_PLACEMENT_3D ( 'NONE', #111, #216, #187 ) ;
#232 = FACE_OUTER_BOUND ( 'NONE', #330, .T. ) ;
#233 = CIRCLE ( 'NONE', #320, 5.000000000000000000 ) ;
#234 = DIRECTION ( 'NONE',  ( -0.000000000000000000, 0.000000000000000000, 1.000000000000000000 ) ) ;
#235 = CARTESIAN_POINT ( 'NONE',  ( -3.000000000000000000, 1.555301434917138433E-15, -12.69999999999999929 ) ) ;
#236 = EDGE_CURVE ( 'NONE', #199, #258, #189, .T. ) ;
#237 = CARTESIAN_POINT ( 'NONE',  ( -3.000000000000000000, 0.000000000000000000, 0.000000000000000000 ) ) ;
#238 = ADVANCED_BREP_SHAPE_REPRESENTATION ( 'Q-OZHWP-R2-10-488-M', ( #197, #59 ), #307 ) ;
#239 = ORIENTED_EDGE ( 'NONE', *, *, #209, .F. ) ;
#240 = AXIS2_PLACEMENT_3D ( 'NONE', #56, #290, #79 ) ;
#241 = DIRECTION ( 'NONE',  ( -1.000000000000000000, -0.000000000000000000, -0.000000000000000000 ) ) ;
#242 = DIRECTION ( 'NONE',  ( 0.000000000000000000, 0.000000000000000000, 1.000000000000000000 ) ) ;
#243 = ORIENTED_EDGE ( 'NONE', *, *, #209, .T. ) ;
#244 = APPROVAL_STATUS ( 'not_yet_approved' ) ;
#245 = ADVANCED_FACE ( 'NONE', ( #19 ), #188, .T. ) ;
#246 = DIRECTION ( 'NONE',  ( -1.000000000000000000, -0.000000000000000000, -0.000000000000000000 ) ) ;
#247 = DIRECTION ( 'NONE',  ( 0.000000000000000000, 0.000000000000000000, 1.000000000000000000 ) ) ;
#248 = CIRCLE ( 'NONE', #103, 5.000000000000001776 ) ;
#249 = MECHANICAL_CONTEXT ( 'NONE', #53, 'mechanical' ) ;
#250 = ORIENTED_EDGE ( 'NONE', *, *, #282, .T. ) ;
#251 = CC_DESIGN_PERSON_AND_ORGANIZATION_ASSIGNMENT ( #37, #117, ( #168 ) ) ;
#252 = DIRECTION ( 'NONE',  ( 0.000000000000000000, 0.000000000000000000, 1.000000000000000000 ) ) ;
#253 = EDGE_LOOP ( 'NONE', ( #124, #176 ) ) ;
#254 = AXIS2_PLACEMENT_3D ( 'NONE', #291, #105, #86 ) ;
#255 = DIRECTION ( 'NONE',  ( 0.000000000000000000, 0.000000000000000000, 1.000000000000000000 ) ) ;
#256 = APPROVAL_DATE_TIME ( #121, #160 ) ;
#257 = EDGE_CURVE ( 'NONE', #226, #326, #171, .T. ) ;
#258 = VERTEX_POINT ( 'NONE', #13 ) ;
#259 = APPROVAL_STATUS ( 'not_yet_approved' ) ;
#260 = CARTESIAN_POINT ( 'NONE',  ( -3.000000000000000000, 0.000000000000000000, 5.000000000000000000 ) ) ;
#261 = DIRECTION ( 'NONE',  ( -1.000000000000000000, -0.000000000000000000, -0.000000000000000000 ) ) ;
#262 = VECTOR ( 'NONE', #202, 1000.000000000000000 ) ;
#263 = LINE ( 'NONE', #99, #6 ) ;
#264 = DIRECTION ( 'NONE',  ( 0.000000000000000000, 0.000000000000000000, -1.000000000000000000 ) ) ;
#265 = PERSON_AND_ORGANIZATION_ROLE ( 'classification_officer' ) ;
#266 = PLANE ( 'NONE',  #240 ) ;
#267 = DATE_AND_TIME ( #169, #181 ) ;
#268 = CARTESIAN_POINT ( 'NONE',  ( -3.000000000000000000, 5.000000000000000000, 0.000000000000000000 ) ) ;
#269 = CIRCLE ( 'NONE', #26, 5.000000000000000000 ) ;
#270 = APPROVAL ( #244, 'UNSPECIFIED' ) ;
#271 = PERSON_AND_ORGANIZATION_ROLE ( 'creator' ) ;
#272 = CARTESIAN_POINT ( 'NONE',  ( 1.250000000000000444, 0.000000000000000000, 5.000000000000000000 ) ) ;
#273 = PERSON_AND_ORGANIZATION ( #158, #39 ) ;
#274 = EDGE_CURVE ( 'NONE', #170, #193, #233, .T. ) ;
#275 = ORIENTED_EDGE ( 'NONE', *, *, #126, .F. ) ;
#276 = AXIS2_PLACEMENT_3D ( 'NONE', #38, #165, #36 ) ;
#277 = ORIENTED_EDGE ( 'NONE', *, *, #312, .F. ) ;
#278 = CARTESIAN_POINT ( 'NONE',  ( -1.614212418857619014, 0.000000000000000000, 0.000000000000000000 ) ) ;
#279 = ORIENTED_EDGE ( 'NONE', *, *, #45, .T. ) ;
#280 = LINE ( 'NONE', #115, #30 ) ;
#281 = EDGE_LOOP ( 'NONE', ( #219, #122 ) ) ;
#282 = EDGE_CURVE ( 'NONE', #226, #258, #280, .T. ) ;
#283 = APPROVAL_PERSON_ORGANIZATION ( #48, #160, #303 ) ;
#284 = AXIS2_PLACEMENT_3D ( 'NONE', #220, #67, #94 ) ;
#285 = DIRECTION ( 'NONE',  ( 1.000000000000000000, 0.000000000000000000, 0.000000000000000000 ) ) ;
#286 = ADVANCED_FACE ( 'NONE', ( #192, #73 ), #229, .F. ) ;
#287 = FACE_OUTER_BOUND ( 'NONE', #281, .T. ) ;
#288 = CC_DESIGN_APPROVAL ( #160, ( #223 ) ) ;
#289 = DIRECTION ( 'NONE',  ( -1.000000000000000000, 0.000000000000000000, -0.000000000000000000 ) ) ;
#290 = DIRECTION ( 'NONE',  ( -1.000000000000000000, 0.000000000000000000, -0.000000000000000000 ) ) ;
#291 = CARTESIAN_POINT ( 'NONE',  ( 3.000000000000000000, 0.000000000000000000, 0.000000000000000000 ) ) ;
#292 = ORIENTED_EDGE ( 'NONE', *, *, #322, .T. ) ;
#293 = EDGE_CURVE ( 'NONE', #100, #304, #116, .T. ) ;
#294 = DIRECTION ( 'NONE',  ( -1.000000000000000000, -0.000000000000000000, -0.000000000000000000 ) ) ;
#295 = DIRECTION ( 'NONE',  ( 0.000000000000000000, 0.000000000000000000, -1.000000000000000000 ) ) ;
#296 = ORIENTED_EDGE ( 'NONE', *, *, #180, .F. ) ;
#297 = CC_DESIGN_PERSON_AND_ORGANIZATION_ASSIGNMENT ( #157, #265, ( #223 ) ) ;
#298 = ORIENTED_EDGE ( 'NONE', *, *, #257, .T. ) ;
#299 = SECURITY_CLASSIFICATION_LEVEL ( 'unclassified' ) ;
#300 = ORIENTED_EDGE ( 'NONE', *, *, #129, .F. ) ;
#301 = EDGE_LOOP ( 'NONE', ( #51, #49 ) ) ;
#302 = CARTESIAN_POINT ( 'NONE',  ( -3.000000000000000000, 0.000000000000000000, 0.000000000000000000 ) ) ;
#303 = APPROVAL_ROLE ( '' ) ;
#304 = VERTEX_POINT ( 'NONE', #9 ) ;
#305 = CC_DESIGN_PERSON_AND_ORGANIZATION_ASSIGNMENT ( #112, #215, ( #28 ) ) ;
#306 = AXIS2_PLACEMENT_3D ( 'NONE', #50, #101, #138 ) ;
#307 =( GEOMETRIC_REPRESENTATION_CONTEXT ( 3 ) GLOBAL_UNCERTAINTY_ASSIGNED_CONTEXT ( ( #93 ) ) GLOBAL_UNIT_ASSIGNED_CONTEXT ( ( #40, #222, #315 ) ) REPRESENTATION_CONTEXT ( 'NONE', 'WORKASPACE' ) );
#308 = PLANE ( 'NONE',  #155 ) ;
#309 = DIRECTION ( 'NONE',  ( 0.000000000000000000, 0.000000000000000000, 1.000000000000000000 ) ) ;
#310 = ORIENTED_EDGE ( 'NONE', *, *, #274, .T. ) ;
#311 = CARTESIAN_POINT ( 'NONE',  ( -1.250000000000000222, 5.000000000000000000, 0.000000000000000000 ) ) ;
#312 = EDGE_CURVE ( 'NONE', #193, #170, #214, .T. ) ;
#313 = DIRECTION ( 'NONE',  ( 0.000000000000000000, 0.000000000000000000, -1.000000000000000000 ) ) ;
#314 = ORIENTED_EDGE ( 'NONE', *, *, #282, .F. ) ;
#315 =( NAMED_UNIT ( * ) SI_UNIT ( $, .STERADIAN. ) SOLID_ANGLE_UNIT ( ) );
#316 = CARTESIAN_POINT ( 'NONE',  ( -1.614212418857619014, 0.000000000000000000, 5.000000000000000888 ) ) ;
#317 = EDGE_LOOP ( 'NONE', ( #243, #120 ) ) ;
#318 = CALENDAR_DATE ( 2020, 22, 12 ) ;
#319 = DIRECTION ( 'NONE',  ( 0.000000000000000000, 0.000000000000000000, 1.000000000000000000 ) ) ;
#320 = AXIS2_PLACEMENT_3D ( 'NONE', #221, #92, #319 ) ;
#321 = VERTEX_POINT ( 'NONE', #123 ) ;
#322 = EDGE_CURVE ( 'NONE', #326, #226, #248, .T. ) ;
#323 = PERSON_AND_ORGANIZATION ( #158, #39 ) ;
#324 = ORIENTED_EDGE ( 'NONE', *, *, #148, .T. ) ;
#325 = COORDINATED_UNIVERSAL_TIME_OFFSET ( 8, 0, .AHEAD. ) ;
#326 = VERTEX_POINT ( 'NONE', #24 ) ;
#327 = CIRCLE ( 'NONE', #127, 5.000000000000000888 ) ;
#328 = CARTESIAN_POINT ( 'NONE',  ( 3.000000000000000000, 0.000000000000000000, 0.000000000000000000 ) ) ;
#329 = ADVANCED_FACE ( 'NONE', ( #125 ), #186, .F. ) ;
#330 = EDGE_LOOP ( 'NONE', ( #10, #196, #72, #296 ) ) ;
#331 = CARTESIAN_POINT ( 'NONE',  ( -3.000000000000000000, 0.000000000000000000, 12.69999999999999929 ) ) ;
#332 = AXIS2_PLACEMENT_3D ( 'NONE', #35, #241, #85 ) ;
#333 = VECTOR ( 'NONE', #261, 1000.000000000000000 ) ;
#334 = ADVANCED_FACE ( 'NONE', ( #91 ), #133, .F. ) ;
#335 = LINE ( 'NONE', #154, #163 ) ;
ENDSEC;
END-ISO-10303-21;
